  0
SECTION
  2
HEADER
  9
$ACADVER
  1
AC1015
  9
$ACADMAINTVER
 70
    13
  9
$DWGCODEPAGE
  3
ANSI_1250
  9
$INSBASE
 10
0.0
 20
0.0
 30
0.0
  9
$EXTMIN
 10
-10517.49851391502
 20
0.0
 30
0.0
  9
$EXTMAX
 10
10105.84877907554
 20
18853.30213106916
 30
19751.27771880445
  9
$LIMMIN
 10
0.0
 20
0.0
  9
$LIMMAX
 10
420.0
 20
297.0
  9
$ORTHOMODE
 70
     0
  9
$REGENMODE
 70
     1
  9
$FILLMODE
 70
     1
  9
$QTEXTMODE
 70
     0
  9
$MIRRTEXT
 70
     1
  9
$LTSCALE
 40
1.0
  9
$ATTMODE
 70
     1
  9
$TEXTSIZE
 40
1.0
  9
$TRACEWID
 40
1.0
  9
$TEXTSTYLE
  7
Standard
  9
$CLAYER
  8
0
  9
$CELTYPE
  6
ByLayer
  9
$CECOLOR
 62
   256
  9
$CELTSCALE
 40
1.0
  9
$DISPSILH
 70
     0
  9
$DIMSCALE
 40
50.0
  9
$DIMASZ
 40
2.5
  9
$DIMEXO
 40
0.625
  9
$DIMDLI
 40
3.75
  9
$DIMRND
 40
0.0
  9
$DIMDLE
 40
0.0
  9
$DIMEXE
 40
1.25
  9
$DIMTP
 40
0.0
  9
$DIMTM
 40
0.0
  9
$DIMTXT
 40
2.5
  9
$DIMCEN
 40
2.5
  9
$DIMTSZ
 40
0.0
  9
$DIMTOL
 70
     0
  9
$DIMLIM
 70
     0
  9
$DIMTIH
 70
     0
  9
$DIMTOH
 70
     0
  9
$DIMSE1
 70
     0
  9
$DIMSE2
 70
     0
  9
$DIMTAD
 70
     1
  9
$DIMZIN
 70
     8
  9
$DIMBLK
  1

  9
$DIMASO
 70
     1
  9
$DIMSHO
 70
     1
  9
$DIMPOST
  1

  9
$DIMAPOST
  1

  9
$DIMALT
 70
     0
  9
$DIMALTD
 70
     3
  9
$DIMALTF
 40
0.03937007874016
  9
$DIMLFAC
 40
1.0
  9
$DIMTOFL
 70
     1
  9
$DIMTVP
 40
0.0
  9
$DIMTIX
 70
     0
  9
$DIMSOXD
 70
     0
  9
$DIMSAH
 70
     0
  9
$DIMBLK1
  1

  9
$DIMBLK2
  1

  9
$DIMSTYLE
  2
ISO-25
  9
$DIMCLRD
 70
     4
  9
$DIMCLRE
 70
     4
  9
$DIMCLRT
 70
     0
  9
$DIMTFAC
 40
1.0
  9
$DIMGAP
 40
0.625
  9
$DIMJUST
 70
     0
  9
$DIMSD1
 70
     0
  9
$DIMSD2
 70
     0
  9
$DIMTOLJ
 70
     0
  9
$DIMTZIN
 70
     8
  9
$DIMALTZ
 70
     0
  9
$DIMALTTZ
 70
     0
  9
$DIMUPT
 70
     0
  9
$DIMDEC
 70
     2
  9
$DIMTDEC
 70
     2
  9
$DIMALTU
 70
     2
  9
$DIMALTTD
 70
     3
  9
$DIMTXSTY
  7
Standard
  9
$DIMAUNIT
 70
     0
  9
$DIMADEC
 70
     0
  9
$DIMALTRND
 40
0.0
  9
$DIMAZIN
 70
     0
  9
$DIMDSEP
 70
    44
  9
$DIMATFIT
 70
     3
  9
$DIMFRAC
 70
     0
  9
$DIMLDRBLK
  1

  9
$DIMLUNIT
 70
     2
  9
$DIMLWD
 70
    -2
  9
$DIMLWE
 70
    -2
  9
$DIMTMOVE
 70
     0
  9
$LUNITS
 70
     2
  9
$LUPREC
 70
     4
  9
$SKETCHINC
 40
1.0
  9
$FILLETRAD
 40
10.0
  9
$AUNITS
 70
     0
  9
$AUPREC
 70
     0
  9
$MENU
  1
.
  9
$ELEVATION
 40
0.0
  9
$PELEVATION
 40
0.0
  9
$THICKNESS
 40
0.0
  9
$LIMCHECK
 70
     0
  9
$CHAMFERA
 40
10.0
  9
$CHAMFERB
 40
10.0
  9
$CHAMFERC
 40
20.0
  9
$CHAMFERD
 40
0.0
  9
$SKPOLY
 70
     0
  9
$TDCREATE
 40
2453637.815442951
  9
$TDUCREATE
 40
2453637.732109617
  9
$TDUPDATE
 40
2453667.617925614
  9
$TDUUPDATE
 40
2453667.534592280
  9
$TDINDWG
 40
0.0179524306
  9
$TDUSRTIMER
 40
0.0179482523
  9
$USRTIMER
 70
     1
  9
$ANGBASE
 50
0.0
  9
$ANGDIR
 70
     0
  9
$PDMODE
 70
     0
  9
$PDSIZE
 40
0.0
  9
$PLINEWID
 40
0.0
  9
$SPLFRAME
 70
     0
  9
$SPLINETYPE
 70
     6
  9
$SPLINESEGS
 70
     8
  9
$HANDSEED
  5
2A4
  9
$SURFTAB1
 70
    12
  9
$SURFTAB2
 70
     6
  9
$SURFTYPE
 70
     6
  9
$SURFU
 70
     6
  9
$SURFV
 70
     6
  9
$UCSBASE
  2

  9
$UCSNAME
  2

  9
$UCSORG
 10
-9392.498513915027
 20
0.0
 30
18626.27771880445
  9
$UCSXDIR
 10
-1.0
 20
0.0
 30
0.0
  9
$UCSYDIR
 10
0.0
 20
0.0
 30
1.0
  9
$UCSORTHOREF
  2

  9
$UCSORTHOVIEW
 70
     0
  9
$UCSORGTOP
 10
0.0
 20
0.0
 30
0.0
  9
$UCSORGBOTTOM
 10
0.0
 20
0.0
 30
0.0
  9
$UCSORGLEFT
 10
0.0
 20
0.0
 30
0.0
  9
$UCSORGRIGHT
 10
0.0
 20
0.0
 30
0.0
  9
$UCSORGFRONT
 10
0.0
 20
0.0
 30
0.0
  9
$UCSORGBACK
 10
0.0
 20
0.0
 30
0.0
  9
$PUCSBASE
  2

  9
$PUCSNAME
  2

  9
$PUCSORG
 10
0.0
 20
0.0
 30
0.0
  9
$PUCSXDIR
 10
1.0
 20
0.0
 30
0.0
  9
$PUCSYDIR
 10
0.0
 20
1.0
 30
0.0
  9
$PUCSORTHOREF
  2

  9
$PUCSORTHOVIEW
 70
     0
  9
$PUCSORGTOP
 10
0.0
 20
0.0
 30
0.0
  9
$PUCSORGBOTTOM
 10
0.0
 20
0.0
 30
0.0
  9
$PUCSORGLEFT
 10
0.0
 20
0.0
 30
0.0
  9
$PUCSORGRIGHT
 10
0.0
 20
0.0
 30
0.0
  9
$PUCSORGFRONT
 10
0.0
 20
0.0
 30
0.0
  9
$PUCSORGBACK
 10
0.0
 20
0.0
 30
0.0
  9
$USERI1
 70
    50
  9
$USERI2
 70
     5
  9
$USERI3
 70
     2
  9
$USERI4
 70
     0
  9
$USERI5
 70
     6
  9
$USERR1
 40
281.0
  9
$USERR2
 40
321.0
  9
$USERR3
 40
2.5
  9
$USERR4
 40
5.0
  9
$USERR5
 40
0.0
  9
$WORLDVIEW
 70
     1
  9
$SHADEDGE
 70
     3
  9
$SHADEDIF
 70
    70
  9
$TILEMODE
 70
     1
  9
$MAXACTVP
 70
    64
  9
$PINSBASE
 10
0.0
 20
0.0
 30
0.0
  9
$PLIMCHECK
 70
     0
  9
$PEXTMIN
 10
0.0
 20
0.0
 30
0.0
  9
$PEXTMAX
 10
0.0
 20
0.0
 30
0.0
  9
$PLIMMIN
 10
0.0
 20
0.0
  9
$PLIMMAX
 10
12.0
 20
9.0
  9
$UNITMODE
 70
     0
  9
$VISRETAIN
 70
     1
  9
$PLINEGEN
 70
     0
  9
$PSLTSCALE
 70
     1
  9
$TREEDEPTH
 70
  3020
  9
$CMLSTYLE
  2
Standard
  9
$CMLJUST
 70
     0
  9
$CMLSCALE
 40
20.0
  9
$PROXYGRAPHICS
 70
     1
  9
$MEASUREMENT
 70
     1
  9
$CELWEIGHT
370
    -1
  9
$ENDCAPS
280
     0
  9
$JOINSTYLE
280
     0
  9
$LWDISPLAY
290
     0
  9
$INSUNITS
 70
     4
  9
$HYPERLINKBASE
  1

  9
$STYLESHEET
  1

  9
$XEDIT
290
     1
  9
$CEPSNTYPE
380
     0
  9
$PSTYLEMODE
290
     1
  9
$FINGERPRINTGUID
  2
{FDEAD578-A652-11D2-9A35-0060089B3A3F}
  9
$VERSIONGUID
  2
{7147DAE2-AF46-447B-9B1D-47BC94FB8537}
  9
$EXTNAMES
290
     1
  9
$PSVPSCALE
 40
0.0
  9
$OLESTARTUP
290
     0
  0
ENDSEC
  0
SECTION
  2
CLASSES
  0
CLASS
  1
ACDBDICTIONARYWDFLT
  2
AcDbDictionaryWithDefault
  3
AutoCAD 2000
 90
        0
280
     0
281
     0
  0
CLASS
  1
ACDBPLACEHOLDER
  2
AcDbPlaceHolder
  3
AutoCAD 2000
 90
        0
280
     0
281
     0
  0
CLASS
  1
LAYOUT
  2
AcDbLayout
  3
AutoCAD 2000
 90
        0
280
     0
281
     0
  0
CLASS
  1
DICTIONARYVAR
  2
AcDbDictionaryVar
  3
AutoCAD 2000
 90
        0
280
     0
281
     0
  0
CLASS
  1
DIMASSOC
  2
AcDbDimAssoc
  3
"AcDbDimAssoc|Product Desc:     AcDim ARX App For Dimension|Company:          Autodesk, Inc.|WEB Address:      www.autodesk.com"
 90
    32768
280
     0
281
     0
  0
ENDSEC
  0
SECTION
  2
TABLES
  0
TABLE
  2
VPORT
  5
8
330
0
100
AcDbSymbolTable
 70
     7
  0
VPORT
  5
2A3
330
8
100
AcDbSymbolTableRecord
100
AcDbViewportTableRecord
  2
*Active
 70
     0
 10
0.0
 20
0.0
 11
1.0
 21
1.0
 12
-6765.616689408978
 22
11730.81518718773
 13
0.0
 23
0.0
 14
10.0
 24
10.0
 15
10.0
 25
10.0
 16
-1.0
 26
-1.0
 36
1.0
 17
0.0
 27
0.0
 37
0.0
 40
1115.98991022397
 41
1.73308957952468
 42
50.0
 43
0.0
 44
0.0
 50
0.0
 51
0.0
 71
     0
 72
   100
 73
     1
 74
     3
 75
     0
 76
     0
 77
     0
 78
     0
281
     0
 65
     1
110
-9392.498513915027
120
0.0
130
18626.27771880445
111
-1.0
121
0.0
131
0.0
112
0.0
122
0.0
132
1.0
 79
     0
146
0.0
  0
ENDTAB
  0
TABLE
  2
LTYPE
  5
5
330
0
100
AcDbSymbolTable
 70
     1
  0
LTYPE
  5
14
330
5
100
AcDbSymbolTableRecord
100
AcDbLinetypeTableRecord
  2
ByBlock
 70
     0
  3

 72
    65
 73
     0
 40
0.0
  0
LTYPE
  5
15
330
5
100
AcDbSymbolTableRecord
100
AcDbLinetypeTableRecord
  2
ByLayer
 70
     0
  3

 72
    65
 73
     0
 40
0.0
  0
LTYPE
  5
16
330
5
100
AcDbSymbolTableRecord
100
AcDbLinetypeTableRecord
  2
Continuous
 70
     0
  3
Solid line
 72
    65
 73
     0
 40
0.0
  0
ENDTAB
  0
TABLE
  2
LAYER
  5
2
330
0
100
AcDbSymbolTable
 70
     3
  0
LAYER
  5
10
330
2
100
AcDbSymbolTableRecord
100
AcDbLayerTableRecord
  2
0
 70
     0
 62
     7
  6
Continuous
370
    -3
390
F
  0
LAYER
  5
89
330
2
100
AcDbSymbolTableRecord
100
AcDbLayerTableRecord
  2
DEFPOINTS
 70
     0
 62
     7
  6
Continuous
290
     0
370
    -3
390
F
  0
LAYER
  5
8A
330
2
100
AcDbSymbolTableRecord
100
AcDbLayerTableRecord
  2
VZ1
 70
     0
 62
     6
  6
Continuous
370
     0
390
F
  0
ENDTAB
  0
TABLE
  2
STYLE
  5
3
330
0
100
AcDbSymbolTable
 70
     2
  0
STYLE
  5
11
330
3
100
AcDbSymbolTableRecord
100
AcDbTextStyleTableRecord
  2
Standard
 70
     0
 40
0.0
 41
1.0
 50
0.0
 71
     0
 42
1.0
  3
txt
  4

  0
STYLE
  5
8B
330
3
100
AcDbSymbolTableRecord
100
AcDbTextStyleTableRecord
  2
ROMANS
 70
     0
 40
0.0
 41
0.8
 50
0.0
 71
     0
 42
1.0
  3
romans.shx
  4

  0
ENDTAB
  0
TABLE
  2
VIEW
  5
6
330
0
100
AcDbSymbolTable
 70
     0
  0
ENDTAB
  0
TABLE
  2
UCS
  5
7
330
0
100
AcDbSymbolTable
 70
     4
  0
UCS
  5
226
330
7
100
AcDbSymbolTableRecord
100
AcDbUCSTableRecord
  2
UCSVEN
 70
     0
 10
-8987.976226127761
 20
0.0
 30
18673.4331675386
 11
-1.0
 21
0.0
 31
0.0
 12
0.0
 22
0.0
 32
1.0
 79
     0
146
0.0
  0
ENDTAB
  0
TABLE
  2
APPID
  5
9
330
0
100
AcDbSymbolTable
 70
     1
  0
APPID
  5
12
330
9
100
AcDbSymbolTableRecord
100
AcDbRegAppTableRecord
  2
ACAD
 70
     0
  0
ENDTAB
  0
TABLE
  2
DIMSTYLE
  5
A
330
0
100
AcDbSymbolTable
 70
     3
100
AcDbDimStyleTable
 71
     1
340
27
  0
DIMSTYLE
105
27
330
A
100
AcDbSymbolTableRecord
100
AcDbDimStyleTableRecord
  2
ISO-25
 70
     0
 40
10.0
 41
2.5
 42
0.625
 43
3.75
 44
1.25
 73
     0
 74
     0
 77
     1
 78
     8
140
2.5
141
2.5
143
0.03937007874016
147
0.625
171
     3
172
     1
176
     4
177
     4
271
     2
272
     2
274
     3
278
    44
283
     0
284
     8
340
11
  0
DIMSTYLE
105
8C
330
A
100
AcDbSymbolTableRecord
100
AcDbDimStyleTableRecord
  2
STANDARD
 70
     0
274
     4
279
     2
284
     8
285
     8
286
     8
340
11
  0
ENDTAB
  0
TABLE
  2
BLOCK_RECORD
  5
1
330
0
100
AcDbSymbolTable
 70
     9
  0
BLOCK_RECORD
  5
1F
330
1
100
AcDbSymbolTableRecord
100
AcDbBlockTableRecord
  2
*Model_Space
340
22
  0
BLOCK_RECORD
  5
50
330
1
100
AcDbSymbolTableRecord
100
AcDbBlockTableRecord
  2
*Paper_Space
340
51
  0
BLOCK_RECORD
  5
55
330
1
100
AcDbSymbolTableRecord
100
AcDbBlockTableRecord
  2
*Paper_Space0
340
56
  0
BLOCK_RECORD
  5
7A
330
1
100
AcDbSymbolTableRecord
100
AcDbBlockTableRecord
  2
zakldatnv
340
0
102
{BLKREFS
331
10B
331
119
331
127
331
134
102
}
  0
BLOCK_RECORD
  5
20A
330
1
100
AcDbSymbolTableRecord
100
AcDbBlockTableRecord
  2
ELE260905210658_1
340
0
102
{BLKREFS
331
215
102
}
  0
BLOCK_RECORD
  5
22E
330
1
100
AcDbSymbolTableRecord
100
AcDbBlockTableRecord
  2
VOMrizHran
340
0
102
{BLKREFS
331
23A
331
246
331
25E
331
26A
331
282
331
28E
102
}
  0
BLOCK_RECORD
  5
28B
330
1
100
AcDbSymbolTableRecord
100
AcDbBlockTableRecord
  2
ELE231005144906_4
340
0
102
{BLKREFS
331
298
102
}
  0
ENDTAB
  0
ENDSEC
  0
SECTION
  2
BLOCKS
  0
BLOCK
  5
20
330
1F
100
AcDbEntity
  8
0
100
AcDbBlockBegin
  2
*Model_Space
 70
     0
 10
0.0
 20
0.0
 30
0.0
  3
*Model_Space
  1

  0
ENDBLK
  5
21
330
1F
100
AcDbEntity
  8
0
100
AcDbBlockEnd
  0
BLOCK
  5
52
330
50
100
AcDbEntity
 67
     1
  8
0
100
AcDbBlockBegin
  2
*Paper_Space
 70
     0
 10
0.0
 20
0.0
 30
0.0
  3
*Paper_Space
  1

  0
ENDBLK
  5
53
330
50
100
AcDbEntity
 67
     1
  8
0
100
AcDbBlockEnd
  0
BLOCK
  5
57
330
55
100
AcDbEntity
  8
0
100
AcDbBlockBegin
  2
*Paper_Space0
 70
     0
 10
0.0
 20
0.0
 30
0.0
  3
*Paper_Space0
  1

  0
ENDBLK
  5
58
330
55
100
AcDbEntity
  8
0
100
AcDbBlockEnd
  0
BLOCK
  5
87
330
7A
100
AcDbEntity
  8
0
100
AcDbBlockBegin
  2
zakldatnv
 70
     2
 10
0.0
 20
0.0
 30
0.0
  3
zakldatnv
  1

  0
ATTDEF
  5
7B
330
7A
100
AcDbEntity
  8
0
  6
Continuous
100
AcDbText
 10
0.0
 20
0.0
 30
0.0
 40
1.0
  1
3
 41
0.8
  7
ROMANS
100
AcDbAttributeDefinition
  3

  2
PROM1
 70
     9
  0
ATTDEF
  5
7C
330
7A
100
AcDbEntity
  8
0
  6
Continuous
100
AcDbText
 10
0.0
 20
0.0
 30
0.0
 40
1.0
  1
0
 41
0.8
  7
ROMANS
100
AcDbAttributeDefinition
  3

  2
PROM2
 70
     9
  0
ATTDEF
  5
7D
330
7A
100
AcDbEntity
  8
0
  6
Continuous
100
AcDbText
 10
0.0
 20
0.0
 30
0.0
 40
1.0
  1
vzizol
 41
0.8
  7
ROMANS
100
AcDbAttributeDefinition
  3

  2
PROM3
 70
     9
  0
ATTDEF
  5
7E
330
7A
100
AcDbEntity
  8
0
  6
Continuous
100
AcDbText
 10
0.0
 20
0.0
 30
0.0
 40
1.0
  1
100
 41
0.8
  7
ROMANS
100
AcDbAttributeDefinition
  3

  2
PROM4
 70
     9
  0
ATTDEF
  5
7F
330
7A
100
AcDbEntity
  8
0
  6
Continuous
100
AcDbText
 10
0.0
 20
0.0
 30
0.0
 40
1.0
  1
VOLSPOJ1.VZ1
 41
0.8
  7
ROMANS
100
AcDbAttributeDefinition
  3

  2
PROM5
 70
     9
  0
ATTDEF
  5
80
330
7A
100
AcDbEntity
  8
0
  6
Continuous
100
AcDbText
 10
0.0
 20
0.0
 30
0.0
 40
1.0
  1
2
 41
0.8
  7
ROMANS
100
AcDbAttributeDefinition
  3

  2
PROM6
 70
     9
  0
ATTDEF
  5
81
330
7A
100
AcDbEntity
  8
0
  6
Continuous
100
AcDbText
 10
0.0
 20
0.0
 30
0.0
 40
1.0
  1
0
 41
0.8
  7
ROMANS
100
AcDbAttributeDefinition
  3

  2
PROM7
 70
     9
  0
ATTDEF
  5
82
330
7A
100
AcDbEntity
  8
0
  6
Continuous
100
AcDbText
 10
0.0
 20
0.0
 30
0.0
 40
1.0
  1
1
 41
0.8
  7
ROMANS
100
AcDbAttributeDefinition
  3

  2
PROM8
 70
     9
  0
ATTDEF
  5
83
330
7A
100
AcDbEntity
  8
0
  6
Continuous
100
AcDbText
 10
0.0
 20
0.0
 30
0.0
 40
1.0
  1
0.25
 41
0.8
  7
ROMANS
100
AcDbAttributeDefinition
  3

  2
PROM9
 70
     9
  0
ATTDEF
  5
84
330
7A
100
AcDbEntity
  8
0
  6
Continuous
100
AcDbText
 10
0.0
 20
0.0
 30
0.0
 40
1.0
  1
0.25
 41
0.8
  7
ROMANS
100
AcDbAttributeDefinition
  3

  2
PROM10
 70
     9
  0
ATTDEF
  5
85
330
7A
100
AcDbEntity
  8
0
  6
Continuous
100
AcDbText
 10
0.0
 20
0.0
 30
0.0
 40
1.0
  1
XV
 41
0.8
  7
ROMANS
100
AcDbAttributeDefinition
  3

  2
PROM11
 70
     9
  0
ATTDEF
  5
86
330
7A
100
AcDbEntity
  8
0
  6
Continuous
100
AcDbText
 10
0.0
 20
0.0
 30
0.0
 40
1.0
  1
0000000000000000
 41
0.8
  7
ROMANS
100
AcDbAttributeDefinition
  3

  2
PROM12
 70
     9
  0
ENDBLK
  5
88
330
7A
100
AcDbEntity
  8
0
100
AcDbBlockEnd
  0
BLOCK
  5
20B
330
20A
100
AcDbEntity
  8
0
100
AcDbBlockBegin
  2
ELE260905210658_1
 70
     2
 10
0.0
 20
0.0
 30
0.0
  3
ELE260905210658_1
  1

  0
ATTDEF
  5
20C
330
20A
100
AcDbEntity
  8
0
 62
     2
100
AcDbText
 10
0.0
 20
0.0
 30
0.0
 40
1.0
  1
1003-536
100
AcDbAttributeDefinition
  3

  2
VETA
 70
     1
  0
ATTDEF
  5
20D
330
20A
100
AcDbEntity
  8
0
 62
     2
100
AcDbText
 10
0.0
 20
0.0
 30
0.0
 40
1.0
  1
1
100
AcDbAttributeDefinition
  3

  2
POS
 70
     1
  0
ATTDEF
  5
20E
330
20A
100
AcDbEntity
  8
0
 62
     2
100
AcDbText
 10
0.0
 20
0.0
 30
0.0
 40
1.0
  1
 AXIÁLNÍ VENTILÁTOR HXM 400
100
AcDbAttributeDefinition
  3

  2
NAZEV
 70
     1
  0
ATTDEF
  5
20F
330
20A
100
AcDbEntity
  8
0
 62
     2
100
AcDbText
 10
0.0
 20
0.0
 30
0.0
 40
1.0
  1

100
AcDbAttributeDefinition
  3

  2
TYP
 70
     1
  0
ATTDEF
  5
210
330
20A
100
AcDbEntity
  8
0
 62
     2
100
AcDbText
 10
0.0
 20
0.0
 30
0.0
 40
1.0
  1

100
AcDbAttributeDefinition
  3

  2
ZETA
 70
     1
  0
ATTDEF
  5
211
330
20A
100
AcDbEntity
  8
0
 62
     2
100
AcDbText
 10
0.0
 20
0.0
 30
0.0
 40
1.0
  1

100
AcDbAttributeDefinition
  3

  2
DRUHTLUM
 70
     1
  0
ATTDEF
  5
212
330
20A
100
AcDbEntity
  8
0
 62
     2
100
AcDbText
 10
0.0
 20
0.0
 30
0.0
 40
1.0
  1

100
AcDbAttributeDefinition
  3

  2
USEK
 70
     1
  0
ATTDEF
  5
213
330
20A
100
AcDbEntity
  8
0
 62
     2
100
AcDbText
 10
0.0
 20
0.0
 30
0.0
 40
1.0
  1

100
AcDbAttributeDefinition
  3

  2
PRUTOK
 70
     1
  0
ENDBLK
  5
214
330
20A
100
AcDbEntity
  8
0
100
AcDbBlockEnd
  0
BLOCK
  5
238
330
22E
100
AcDbEntity
  8
0
100
AcDbBlockBegin
  2
VOMrizHran
 70
     0
 10
0.0
 20
0.0
 30
0.0
  3
VOMrizHran
  1

  0
LINE
  5
22F
330
22E
100
AcDbEntity
  8
0
  6
Continuous
 62
     7
100
AcDbLine
 10
-0.5
 20
0.5
 30
0.0
 11
-0.5
 21
-0.5
 31
0.0
  0
LINE
  5
230
330
22E
100
AcDbEntity
  8
0
  6
Continuous
 62
     7
100
AcDbLine
 10
0.5
 20
-0.5
 30
0.0
 11
0.5
 21
0.5
 31
0.0
  0
LINE
  5
231
330
22E
100
AcDbEntity
  8
0
  6
Continuous
 62
     7
100
AcDbLine
 10
-0.5
 20
-0.3333333333333333
 30
0.0
 11
0.5
 21
-0.3333333333333333
 31
0.0
  0
LINE
  5
232
330
22E
100
AcDbEntity
  8
0
  6
Continuous
 62
     7
100
AcDbLine
 10
-0.5
 20
-0.1666666666666666
 30
0.0
 11
0.5
 21
-0.1666666666666666
 31
0.0
  0
LINE
  5
233
330
22E
100
AcDbEntity
  8
0
  6
Continuous
 62
     7
100
AcDbLine
 10
-0.5
 20
-0.5
 30
0.0
 11
0.5
 21
-0.5
 31
0.0
  0
LINE
  5
234
330
22E
100
AcDbEntity
  8
0
  6
Continuous
 62
     7
100
AcDbLine
 10
-0.5
 20
0.0
 30
0.0
 11
0.5
 21
0.0
 31
0.0
  0
LINE
  5
235
330
22E
100
AcDbEntity
  8
0
  6
Continuous
 62
     7
100
AcDbLine
 10
-0.5
 20
0.1666666666666667
 30
0.0
 11
0.5
 21
0.1666666666666667
 31
0.0
  0
LINE
  5
236
330
22E
100
AcDbEntity
  8
0
  6
Continuous
 62
     7
100
AcDbLine
 10
-0.5
 20
0.3333333333333334
 30
0.0
 11
0.5
 21
0.3333333333333334
 31
0.0
  0
LINE
  5
237
330
22E
100
AcDbEntity
  8
0
  6
Continuous
 62
     7
100
AcDbLine
 10
0.5
 20
0.5
 30
0.0
 11
-0.5
 21
0.5
 31
0.0
  0
ENDBLK
  5
239
330
22E
100
AcDbEntity
  8
0
100
AcDbBlockEnd
  0
BLOCK
  5
28C
330
28B
100
AcDbEntity
  8
0
100
AcDbBlockBegin
  2
ELE231005144906_4
 70
     2
 10
0.0
 20
0.0
 30
0.0
  3
ELE231005144906_4
  1

  0
3DSOLID
  5
28D
330
28B
100
AcDbEntity
  8
0
100
AcDbModelerGeometry
 70
     1
  1
koo gj n o          
  1
h J1410(1 nl ^ \VL kqoqm QK mk L*1 P<+ ml nkekfekg mooj 
  1
rn fqfffffffffffffffj:rooh n:rono 
  1
=0;& {rn {n {rn {rn |
  1
3*2/ {rn {rn {m {o |
  1
,7:33 {rn {rn {rn {l {rn {n |
  1
9><: {rn {k {j {m {rn {i 90-(>-; ,6183: |
  1
9><: {rn {h {g {m {rn {f -:):-,:; ,6183: |
  1
300/ {rn {rn {no {l |
  1
/3>1:r,*-9><: {rn jimqj jimqj kkiqffffffffffffgl o o n n o o 90-(>-;@) V V V V |
  1
9><: {rn {nn {nm {m {rn {nl -:):-,:; ,6183: |
  1
300/ {rn {rn {nk {k |
  1
/3>1:r,*-9><: {rn jimqj jimqj o o o n n o o 90-(>-;@) V V V V |
  1
<0:;8: {rn {nj {ni {nh {ng 90-(>-; {j {rn |
  1
9><: {rn {nf {mo {m {rn {mn -:):-,:; ,6183: |
  1
300/ {rn {rn {mm {h |
  1
/3>1:r,*-9><: {rn jimqj o mmlqkffffffffffffn o n o o o n 90-(>-;@) V V V V |
  1
<0:;8: {rn {ml {mk {mj {mi 90-(>-; {g {rn |
  1
<0:;8: {rn {mh {no {mg {mf 90-(>-; {j {rn |
  1
<0:;8: {rn {no {mh {lo {ln 90-(>-; {j {rn |
  1
<0:;8: {rn {lm {ll {no {ng -:):-,:; {lk {rn |
  1
:;8: {rn {lj {li {nh {lh 90-(>-; |
  1
9><: {rn {lg {lf {m {rn {ko -:):-,:; ,6183: |
  1
300/ {rn {rn {kn {nn |
  1
/3>1:r,*-9><: {rn o jimqj mmlqkffffffffffffn n o o o o rn 90-(>-;@) V V V V |
  1
<0:;8: {rn {km {lo {kl {kk 90-(>-; {nm {rn |
  1
<0:;8: {rn {kj {nk {km {ki 90-(>-; {g {rn |
  1
<0:;8: {rn {nk {kj {kh {kg 90-(>-; {g {rn |
  1
<0:;8: {rn {ll {lm {nk {mi -:):-,:; {lk {rn |
  1
:;8: {rn {kf {jo {mj {jn 90-(>-; |
  1
<0:;8: {rn {ni {nj {jm {jl 90-(>-; {j {rn |
  1
<0:;8: {rn {jk {jj {nj {mf -:):-,:; {lf {rn |
  1
:;8: {rn {li {ji {mg {jh 90-(>-; |
  1
<0:;8: {rn {mm {jg {ni {ln -:):-,:; {nm {rn |
  1
:;8: {rn {jf {lj {lo {io 90-(>-; |
  1
<0:;8: {rn {mj {nh {jg {in 90-(>-; {lk {rn |
  1
<0:;8: {rn {nh {mj {jk {im -:):-,:; {lk {rn |
  1
300/ {rn {rn {lm {lg |
  1
):-+:' {rn {ng {il |
  1
):-+:' {rn {ng {ik |
  1
,+->687+r<*-): {rn nnmj jimqj kkiqffffffffffffgl o n o V V |
  1
9><: {rn {rn {lk {m {rn {ij -:):-,:; ,6183: |
  1
300/ {rn {rn {jk {nf |
  1
/3>1:r,*-9><: {rn jimqj nnmj mmlqkffffffffffffn o rn o o o rn 90-(>-;@) V V V V |
  1
<0:;8: {rn {ii {jm {jj {ih 90-(>-; {mo {rn |
  1
<0:;8: {rn {jg {mm {ml {ki -:):-,:; {nm {rn |
  1
<0:;8: {rn {jm {ii {mm {kk -:):-,:; {mo {rn |
  1
:;8: {rn {jf {ig {kl {if 90-(>-; |
  1
<0:;8: {rn {mk {ml {ii {ho 90-(>-; {g {rn |
  1
:;8: {rn {jo {ig {km {hn 90-(>-; |
  1
<0:;8: {rn {jj {jk {mk {kg -:):-,:; {lf {rn |
  1
:;8: {rn {hm {kf {kh {hl 90-(>-; |
  1
):-+:' {rn {mi {hk |
  1
):-+:' {rn {in {hj |
  1
,+->687+r<*-): {rn nnmj jimqj o o rn o V V |
  1
<0:;8: {rn {kn {kl {mh {jl -:):-,:; {mo {rn |
  1
:;8: {rn {ji {jf {jm {hi 90-(>-; |
  1
<0:;8: {rn {kh {mg {ll {im 90-(>-; {lf {rn |
  1
<0:;8: {rn {mg {kh {kn {ih -:):-,:; {lf {rn |
  1
):-+:' {rn {mf {hh |
  1
,+->687+r<*-): {rn jimqj nnmj kkiqffffffffffffgl rn o o V V |
  1
<0:;8: {rn {lo {km {lm {in -:):-,:; {nm {rn |
  1
):-+:' {rn {jl {hg |
  1
,+->687+r<*-): {rn jimqj o kkiqffffffffffffgl n o o V V |
  1
:;8: {rn {lj {jo {lm {hf 90-(>-; |
  1
:;8: {rn {li {kf {ll {go 90-(>-; |
  1
/061+ {rn nnmj o kkiqffffffffffffgl |
  1
/061+ {rn nnmj nnmj kkiqffffffffffffgl |
  1
/3>1:r,*-9><: {rn nnmj jimqj mmlqkffffffffffffn rn o o o o n 90-(>-;@) V V V V |
  1
<0:;8: {rn {kl {kn {kj {ho -:):-,:; {mo {rn |
  1
:;8: {rn {ji {hm {jj {gn 90-(>-; |
  1
):-+:' {rn {ho {gm |
  1
,+->687+r<*-): {rn o o mmlqkffffffffffffn o o rn V V |
  1
:;8: {rn {ig {hm {ii {gl 90-(>-; |
  1
,+->687+r<*-): {rn jimqj o o rn o o V V |
  1
):-+:' {rn {kg {gk |
  1
,+->687+r<*-): {rn jimqj nnmj o n o o V V |
  1
/061+ {rn nnmj nnmj o |
  1
/061+ {rn nnmj o o |
  1
,+->687+r<*-): {rn o jimqj kkiqffffffffffffgl o rn o V V |
  1
/061+ {rn o nnmj kkiqffffffffffffgl |
  1
/061+ {rn o o kkiqffffffffffffgl |
  1
,+->687+r<*-): {rn nnmj o mmlqkffffffffffffn o o rn V V |
  1
,+->687+r<*-): {rn nnmj nnmj mmlqkffffffffffffn o o rn V V |
  1
,+->687+r<*-): {rn o nnmj mmlqkffffffffffffn o o rn V V |
  1
/061+ {rn o o o |
  1
,+->687+r<*-): {rn o jimqj o o n o V V |
  1
/061+ {rn o nnmj o |
  0
INSERT
  5
28E
330
28B
100
AcDbEntity
  8
0
100
AcDbBlockReference
  2
VOMrizHran
 10
562.5
 20
562.5
 30
0.0
 41
1125.0
 42
1125.0
 43
1125.0
  0
ATTDEF
  5
28F
330
28B
100
AcDbEntity
  8
0
100
AcDbText
 10
0.0
 20
0.0
 30
0.0
 40
1.0
  1
1003-3944
100
AcDbAttributeDefinition
  3

  2
VETA
 70
     1
  0
ATTDEF
  5
290
330
28B
100
AcDbEntity
  8
0
100
AcDbText
 10
0.0
 20
0.0
 30
0.0
 40
1.0
  1
1
100
AcDbAttributeDefinition
  3

  2
POS
 70
     1
  0
ATTDEF
  5
291
330
28B
100
AcDbEntity
  8
0
100
AcDbText
 10
0.0
 20
0.0
 30
0.0
 40
1.0
  1
HIB/HIT 1000 NP
100
AcDbAttributeDefinition
  3

  2
NAZEV
 70
     1
  0
ATTDEF
  5
292
330
28B
100
AcDbEntity
  8
0
100
AcDbText
 10
0.0
 20
0.0
 30
0.0
 40
1.0
  1

100
AcDbAttributeDefinition
  3

  2
TYP
 70
     1
  0
ATTDEF
  5
293
330
28B
100
AcDbEntity
  8
0
100
AcDbText
 10
0.0
 20
0.0
 30
0.0
 40
1.0
  1

100
AcDbAttributeDefinition
  3

  2
ZETA
 70
     1
  0
ATTDEF
  5
294
330
28B
100
AcDbEntity
  8
0
100
AcDbText
 10
0.0
 20
0.0
 30
0.0
 40
1.0
  1

100
AcDbAttributeDefinition
  3

  2
DRUHTLUM
 70
     1
  0
ATTDEF
  5
295
330
28B
100
AcDbEntity
  8
0
100
AcDbText
 10
0.0
 20
0.0
 30
0.0
 40
1.0
  1

100
AcDbAttributeDefinition
  3

  2
USEK
 70
     1
  0
ATTDEF
  5
296
330
28B
100
AcDbEntity
  8
0
100
AcDbText
 10
0.0
 20
0.0
 30
0.0
 40
1.0
  1

100
AcDbAttributeDefinition
  3

  2
PRUTOK
 70
     1
  0
ENDBLK
  5
297
330
28B
100
AcDbEntity
  8
0
100
AcDbBlockEnd
  0
ENDSEC
  0
SECTION
  2
ENTITIES
  0
INSERT
  5
10B
330
1F
100
AcDbEntity
  8
VZ1
  6
Continuous
 62
     1
100
AcDbBlockReference
 66
     1
  2
zakldatnv
 10
467.9263084122712
 20
305.3305762987581
 30
0.0
  0
ATTRIB
  5
10C
330
10B
100
AcDbEntity
  8
VZ1
  6
Continuous
 62
     1
100
AcDbText
 10
467.9263084122712
 20
305.3305762987581
 30
0.0
 40
2.5
  1
0000000000000000
 41
0.8
  7
ROMANS
100
AcDbAttribute
  2
PROM12
 70
     1
  0
ATTRIB
  5
10D
330
10B
100
AcDbEntity
  8
VZ1
  6
Continuous
 62
     1
100
AcDbText
 10
467.9263084122712
 20
305.3305762987581
 30
0.0
 40
2.5
  1
XV
 41
0.8
  7
ROMANS
100
AcDbAttribute
  2
PROM11
 70
     1
  0
ATTRIB
  5
10E
330
10B
100
AcDbEntity
  8
VZ1
  6
Continuous
 62
     1
100
AcDbText
 10
467.9263084122712
 20
305.3305762987581
 30
0.0
 40
2.5
  1
0.25
 41
0.8
  7
ROMANS
100
AcDbAttribute
  2
PROM10
 70
     1
  0
ATTRIB
  5
10F
330
10B
100
AcDbEntity
  8
VZ1
  6
Continuous
 62
     1
100
AcDbText
 10
467.9263084122712
 20
305.3305762987581
 30
0.0
 40
2.5
  1
0.25
 41
0.8
  7
ROMANS
100
AcDbAttribute
  2
PROM9
 70
     1
  0
ATTRIB
  5
110
330
10B
100
AcDbEntity
  8
VZ1
  6
Continuous
 62
     1
100
AcDbText
 10
467.9263084122712
 20
305.3305762987581
 30
0.0
 40
2.5
  1
1
 41
0.8
  7
ROMANS
100
AcDbAttribute
  2
PROM8
 70
     1
  0
ATTRIB
  5
111
330
10B
100
AcDbEntity
  8
VZ1
  6
Continuous
 62
     1
100
AcDbText
 10
467.9263084122712
 20
305.3305762987581
 30
0.0
 40
2.5
  1
0
 41
0.8
  7
ROMANS
100
AcDbAttribute
  2
PROM7
 70
     1
  0
ATTRIB
  5
112
330
10B
100
AcDbEntity
  8
VZ1
  6
Continuous
 62
     1
100
AcDbText
 10
467.9263084122712
 20
305.3305762987581
 30
0.0
 40
2.5
  1
2
 41
0.8
  7
ROMANS
100
AcDbAttribute
  2
PROM6
 70
     1
  0
ATTRIB
  5
113
330
10B
100
AcDbEntity
  8
VZ1
  6
Continuous
 62
     1
100
AcDbText
 10
467.9263084122712
 20
305.3305762987581
 30
0.0
 40
2.5
  1
VOLSPOJ1.VZ1
 41
0.8
  7
ROMANS
100
AcDbAttribute
  2
PROM5
 70
     1
  0
ATTRIB
  5
114
330
10B
100
AcDbEntity
  8
VZ1
  6
Continuous
 62
     1
100
AcDbText
 10
467.9263084122712
 20
305.3305762987581
 30
0.0
 40
2.5
  1
100
 41
0.8
  7
ROMANS
100
AcDbAttribute
  2
PROM4
 70
     1
  0
ATTRIB
  5
115
330
10B
100
AcDbEntity
  8
VZ1
  6
Continuous
 62
     1
100
AcDbText
 10
467.9263084122712
 20
305.3305762987581
 30
0.0
 40
2.5
  1
vzizol
 41
0.8
  7
ROMANS
100
AcDbAttribute
  2
PROM3
 70
     1
  0
ATTRIB
  5
116
330
10B
100
AcDbEntity
  8
VZ1
  6
Continuous
 62
     1
100
AcDbText
 10
467.9263084122712
 20
305.3305762987581
 30
0.0
 40
2.5
  1
VZ1
 41
0.8
  7
ROMANS
100
AcDbAttribute
  2
PROM2
 70
     1
  0
ATTRIB
  5
117
330
10B
100
AcDbEntity
  8
VZ1
  6
Continuous
 62
     1
100
AcDbText
 10
467.9263084122712
 20
305.3305762987581
 30
0.0
 40
2.5
  1
3
 41
0.8
  7
ROMANS
100
AcDbAttribute
  2
PROM1
 70
     1
  0
SEQEND
  5
118
330
10B
100
AcDbEntity
  8
VZ1
  6
Continuous
 62
     1
  0
INSERT
  5
119
330
1F
100
AcDbEntity
  8
VZ1
  6
Continuous
100
AcDbBlockReference
 66
     1
  2
zakldatnv
 10
467.9263084122712
 20
305.3305762987581
 30
0.0
  0
ATTRIB
  5
11A
330
119
100
AcDbEntity
  8
VZ1
  6
Continuous
 62
     1
100
AcDbText
 10
467.9263084122712
 20
305.3305762987581
 30
0.0
 40
2.5
  1
0000000000000011
 41
0.8
  7
ROMANS
100
AcDbAttribute
  2
PROM12
 70
     9
  0
ATTRIB
  5
11B
330
119
100
AcDbEntity
  8
VZ1
  6
Continuous
 62
     1
100
AcDbText
 10
467.9263084122712
 20
305.3305762987581
 30
0.0
 40
2.5
  1
XV
 41
0.8
  7
ROMANS
100
AcDbAttribute
  2
PROM11
 70
     9
  0
ATTRIB
  5
11C
330
119
100
AcDbEntity
  8
VZ1
  6
Continuous
 62
     1
100
AcDbText
 10
467.9263084122712
 20
305.3305762987581
 30
0.0
 40
2.5
  1
0
 41
0.8
  7
ROMANS
100
AcDbAttribute
  2
PROM10
 70
     9
  0
ATTRIB
  5
11D
330
119
100
AcDbEntity
  8
VZ1
  6
Continuous
 62
     1
100
AcDbText
 10
467.9263084122712
 20
305.3305762987581
 30
0.0
 40
2.5
  1
0
 41
0.8
  7
ROMANS
100
AcDbAttribute
  2
PROM9
 70
     9
  0
ATTRIB
  5
11E
330
119
100
AcDbEntity
  8
VZ1
  6
Continuous
 62
     1
100
AcDbText
 10
467.9263084122712
 20
305.3305762987581
 30
0.0
 40
2.5
  1
1
 41
0.8
  7
ROMANS
100
AcDbAttribute
  2
PROM8
 70
     9
  0
ATTRIB
  5
11F
330
119
100
AcDbEntity
  8
VZ1
  6
Continuous
 62
     1
100
AcDbText
 10
467.9263084122712
 20
305.3305762987581
 30
0.0
 40
2.5
  1
0
 41
0.8
  7
ROMANS
100
AcDbAttribute
  2
PROM7
 70
     9
  0
ATTRIB
  5
120
330
119
100
AcDbEntity
  8
VZ1
  6
Continuous
 62
     1
100
AcDbText
 10
467.9263084122712
 20
305.3305762987581
 30
0.0
 40
2.5
  1
2
 41
0.8
  7
ROMANS
100
AcDbAttribute
  2
PROM6
 70
     9
  0
ATTRIB
  5
121
330
119
100
AcDbEntity
  8
VZ1
  6
Continuous
 62
     1
100
AcDbText
 10
467.9263084122712
 20
305.3305762987581
 30
0.0
 40
2.5
  1
VOLSPOJ1.VZ1
 41
0.8
  7
ROMANS
100
AcDbAttribute
  2
PROM5
 70
     9
  0
ATTRIB
  5
122
330
119
100
AcDbEntity
  8
VZ1
  6
Continuous
 62
     1
100
AcDbText
 10
467.9263084122712
 20
305.3305762987581
 30
0.0
 40
2.5
  1
100
 41
0.8
  7
ROMANS
100
AcDbAttribute
  2
PROM4
 70
     9
  0
ATTRIB
  5
123
330
119
100
AcDbEntity
  8
VZ1
  6
Continuous
 62
     1
100
AcDbText
 10
467.9263084122712
 20
305.3305762987581
 30
0.0
 40
2.5
  1
vzizol
 41
0.8
  7
ROMANS
100
AcDbAttribute
  2
PROM3
 70
     9
  0
ATTRIB
  5
124
330
119
100
AcDbEntity
  8
VZ1
  6
Continuous
 62
     1
100
AcDbText
 10
467.9263084122712
 20
305.3305762987581
 30
0.0
 40
2.5
  1
VZ1
 41
0.8
  7
ROMANS
100
AcDbAttribute
  2
PROM2
 70
     9
  0
ATTRIB
  5
125
330
119
100
AcDbEntity
  8
VZ1
  6
Continuous
 62
     1
100
AcDbText
 10
467.9263084122712
 20
305.3305762987581
 30
0.0
 40
2.5
  1
3
 41
0.8
  7
ROMANS
100
AcDbAttribute
  2
PROM1
 70
     9
  0
SEQEND
  5
126
330
119
100
AcDbEntity
  8
VZ1
  6
Continuous
  0
INSERT
  5
127
330
1F
100
AcDbEntity
  8
0
  6
Continuous
100
AcDbBlockReference
 66
     1
  2
zakldatnv
 10
467.9263084122712
 20
305.3305762987581
 30
0.0
  0
ATTRIB
  5
128
330
127
100
AcDbEntity
  8
0
  6
Continuous
100
AcDbText
 10
467.9263084122712
 20
305.3305762987581
 30
0.0
 40
1.0
  1
3
 41
0.8
  7
ROMANS
100
AcDbAttribute
  2
PROM1
 70
     9
  0
ATTRIB
  5
129
330
127
100
AcDbEntity
  8
0
  6
Continuous
100
AcDbText
 10
467.9263084122712
 20
305.3305762987581
 30
0.0
 40
1.0
  1
VZ1
 41
0.8
  7
ROMANS
100
AcDbAttribute
  2
PROM2
 70
     9
  0
ATTRIB
  5
12A
330
127
100
AcDbEntity
  8
0
  6
Continuous
100
AcDbText
 10
467.9263084122712
 20
305.3305762987581
 30
0.0
 40
1.0
  1
vzizol
 41
0.8
  7
ROMANS
100
AcDbAttribute
  2
PROM3
 70
     9
  0
ATTRIB
  5
12B
330
127
100
AcDbEntity
  8
0
  6
Continuous
100
AcDbText
 10
467.9263084122712
 20
305.3305762987581
 30
0.0
 40
1.0
  1
100
 41
0.8
  7
ROMANS
100
AcDbAttribute
  2
PROM4
 70
     9
  0
ATTRIB
  5
12C
330
127
100
AcDbEntity
  8
0
  6
Continuous
100
AcDbText
 10
467.9263084122712
 20
305.3305762987581
 30
0.0
 40
1.0
  1
VOLSPOJ1.VZ1
 41
0.8
  7
ROMANS
100
AcDbAttribute
  2
PROM5
 70
     9
  0
ATTRIB
  5
12D
330
127
100
AcDbEntity
  8
0
  6
Continuous
100
AcDbText
 10
467.9263084122712
 20
305.3305762987581
 30
0.0
 40
1.0
  1
0
 41
0.8
  7
ROMANS
100
AcDbAttribute
  2
PROM7
 70
     9
  0
ATTRIB
  5
12E
330
127
100
AcDbEntity
  8
0
  6
Continuous
100
AcDbText
 10
467.9263084122712
 20
305.3305762987581
 30
0.0
 40
1.0
  1
1
 41
0.8
  7
ROMANS
100
AcDbAttribute
  2
PROM8
 70
     9
  0
ATTRIB
  5
12F
330
127
100
AcDbEntity
  8
0
  6
Continuous
100
AcDbText
 10
467.9263084122712
 20
305.3305762987581
 30
0.0
 40
1.0
  1
0
 41
0.8
  7
ROMANS
100
AcDbAttribute
  2
PROM9
 70
     9
  0
ATTRIB
  5
130
330
127
100
AcDbEntity
  8
0
  6
Continuous
100
AcDbText
 10
467.9263084122712
 20
305.3305762987581
 30
0.0
 40
1.0
  1
0
 41
0.8
  7
ROMANS
100
AcDbAttribute
  2
PROM10
 70
     9
  0
ATTRIB
  5
131
330
127
100
AcDbEntity
  8
0
  6
Continuous
100
AcDbText
 10
467.9263084122712
 20
305.3305762987581
 30
0.0
 40
1.0
  1
XV
 41
0.8
  7
ROMANS
100
AcDbAttribute
  2
PROM11
 70
     9
  0
ATTRIB
  5
132
330
127
100
AcDbEntity
  8
0
  6
Continuous
100
AcDbText
 10
467.9263084122712
 20
305.3305762987581
 30
0.0
 40
1.0
  1
0000000000000011
 41
0.8
  7
ROMANS
100
AcDbAttribute
  2
PROM12
 70
     9
  0
SEQEND
  5
133
330
127
100
AcDbEntity
  8
0
  6
Continuous
  0
INSERT
  5
134
330
1F
100
AcDbEntity
  8
0
  6
Continuous
100
AcDbBlockReference
 66
     1
  2
zakldatnv
 10
467.9263084122712
 20
305.3305762987581
 30
0.0
  0
ATTRIB
  5
135
330
134
100
AcDbEntity
  8
0
  6
Continuous
100
AcDbText
 10
467.9263084122712
 20
305.3305762987581
 30
0.0
 40
1.0
  1
3
 41
0.8
  7
ROMANS
100
AcDbAttribute
  2
PROM1
 70
     9
  0
ATTRIB
  5
136
330
134
100
AcDbEntity
  8
0
  6
Continuous
100
AcDbText
 10
467.9263084122712
 20
305.3305762987581
 30
0.0
 40
1.0
  1
VZ1
 41
0.8
  7
ROMANS
100
AcDbAttribute
  2
PROM2
 70
     9
  0
ATTRIB
  5
137
330
134
100
AcDbEntity
  8
0
  6
Continuous
100
AcDbText
 10
467.9263084122712
 20
305.3305762987581
 30
0.0
 40
1.0
  1
vzizol
 41
0.8
  7
ROMANS
100
AcDbAttribute
  2
PROM3
 70
     9
  0
ATTRIB
  5
138
330
134
100
AcDbEntity
  8
0
  6
Continuous
100
AcDbText
 10
467.9263084122712
 20
305.3305762987581
 30
0.0
 40
1.0
  1
100
 41
0.8
  7
ROMANS
100
AcDbAttribute
  2
PROM4
 70
     9
  0
ATTRIB
  5
139
330
134
100
AcDbEntity
  8
0
  6
Continuous
100
AcDbText
 10
467.9263084122712
 20
305.3305762987581
 30
0.0
 40
1.0
  1
VOLSPOJ1.VZ1
 41
0.8
  7
ROMANS
100
AcDbAttribute
  2
PROM5
 70
     9
  0
ATTRIB
  5
13A
330
134
100
AcDbEntity
  8
0
  6
Continuous
100
AcDbText
 10
467.9263084122712
 20
305.3305762987581
 30
0.0
 40
1.0
  1
2
 41
0.8
  7
ROMANS
100
AcDbAttribute
  2
PROM6
 70
     9
  0
ATTRIB
  5
13B
330
134
100
AcDbEntity
  8
0
  6
Continuous
100
AcDbText
 10
467.9263084122712
 20
305.3305762987581
 30
0.0
 40
1.0
  1
0
 41
0.8
  7
ROMANS
100
AcDbAttribute
  2
PROM7
 70
     9
  0
ATTRIB
  5
13C
330
134
100
AcDbEntity
  8
0
  6
Continuous
100
AcDbText
 10
467.9263084122712
 20
305.3305762987581
 30
0.0
 40
1.0
  1
1
 41
0.8
  7
ROMANS
100
AcDbAttribute
  2
PROM8
 70
     9
  0
ATTRIB
  5
13D
330
134
100
AcDbEntity
  8
0
  6
Continuous
100
AcDbText
 10
467.9263084122712
 20
305.3305762987581
 30
0.0
 40
1.0
  1
0.25
 41
0.8
  7
ROMANS
100
AcDbAttribute
  2
PROM9
 70
     9
  0
ATTRIB
  5
13E
330
134
100
AcDbEntity
  8
0
  6
Continuous
100
AcDbText
 10
467.9263084122712
 20
305.3305762987581
 30
0.0
 40
1.0
  1
0.25
 41
0.8
  7
ROMANS
100
AcDbAttribute
  2
PROM10
 70
     9
  0
ATTRIB
  5
13F
330
134
100
AcDbEntity
  8
0
  6
Continuous
100
AcDbText
 10
467.9263084122712
 20
305.3305762987581
 30
0.0
 40
1.0
  1
XV
 41
0.8
  7
ROMANS
100
AcDbAttribute
  2
PROM11
 70
     9
  0
ATTRIB
  5
140
330
134
100
AcDbEntity
  8
0
  6
Continuous
100
AcDbText
 10
467.9263084122712
 20
305.3305762987581
 30
0.0
 40
1.0
  1
0000000000000000
 41
0.8
  7
ROMANS
100
AcDbAttribute
  2
PROM12
 70
     9
  0
SEQEND
  5
141
330
134
100
AcDbEntity
  8
0
  6
Continuous
  0
INSERT
  5
215
330
1F
100
AcDbEntity
  8
0
 62
     2
100
AcDbBlockReference
 66
     1
  2
ELE260905210658_1
 10
9666.188660249755
 20
0.0000000000040493
 30
-18236.26937188142
210
0.0
220
-1.0
230
0.0000000000000002
  0
ATTRIB
  5
216
330
215
100
AcDbEntity
  8
0
 62
     2
100
AcDbText
 10
9666.188660249755
 20
0.0000000000040493
 30
-18236.26937188142
 40
1.0
  1
1003-536
210
0.0
220
-1.0
230
0.0000000000000002
100
AcDbAttribute
  2
VETA
 70
     1
  0
ATTRIB
  5
217
330
215
100
AcDbEntity
  8
0
 62
     2
100
AcDbText
 10
9666.188660249755
 20
0.0000000000040493
 30
-18236.26937188142
 40
1.0
  1
1
210
0.0
220
-1.0
230
0.0000000000000002
100
AcDbAttribute
  2
POS
 70
     1
  0
ATTRIB
  5
218
330
215
100
AcDbEntity
  8
0
 62
     2
100
AcDbText
 10
9666.188660249755
 20
0.0000000000040493
 30
-18236.26937188142
 40
1.0
  1
 AXIÁLNÍ VENTILÁTOR HXM 400
210
0.0
220
-1.0
230
0.0000000000000002
100
AcDbAttribute
  2
NAZEV
 70
     1
  0
ATTRIB
  5
219
330
215
100
AcDbEntity
  8
0
 62
     2
100
AcDbText
 10
9666.188660249755
 20
0.0000000000040493
 30
-18236.26937188142
 40
1.0
  1

210
0.0
220
-1.0
230
0.0000000000000002
100
AcDbAttribute
  2
TYP
 70
     1
  0
ATTRIB
  5
21A
330
215
100
AcDbEntity
  8
0
 62
     2
100
AcDbText
 10
9666.188660249755
 20
0.0000000000040493
 30
-18236.26937188142
 40
1.0
  1

210
0.0
220
-1.0
230
0.0000000000000002
100
AcDbAttribute
  2
ZETA
 70
     1
  0
ATTRIB
  5
21B
330
215
100
AcDbEntity
  8
0
 62
     2
100
AcDbText
 10
9666.188660249755
 20
0.0000000000040493
 30
-18236.26937188142
 40
1.0
  1

210
0.0
220
-1.0
230
0.0000000000000002
100
AcDbAttribute
  2
DRUHTLUM
 70
     1
  0
ATTRIB
  5
21C
330
215
100
AcDbEntity
  8
0
 62
     2
100
AcDbText
 10
9666.188660249755
 20
0.0000000000040493
 30
-18236.26937188142
 40
1.0
  1

210
0.0
220
-1.0
230
0.0000000000000002
100
AcDbAttribute
  2
USEK
 70
     1
  0
ATTRIB
  5
21D
330
215
100
AcDbEntity
  8
0
 62
     2
100
AcDbText
 10
9666.188660249755
 20
0.0000000000040493
 30
-18236.26937188142
 40
1.0
  1

210
0.0
220
-1.0
230
0.0000000000000002
100
AcDbAttribute
  2
PRUTOK
 70
     1
  0
SEQEND
  5
21E
330
215
100
AcDbEntity
  8
0
 62
     2
  0
INSERT
  5
298
330
1F
100
AcDbEntity
  8
0
100
AcDbBlockReference
 66
     1
  2
ELE231005144906_4
 10
9392.498513915027
 20
18626.27771880445
 30
0.0
210
0.0
220
1.0
230
0.0
  0
ATTRIB
  5
299
330
298
100
AcDbEntity
  8
0
100
AcDbText
 10
9392.498513915027
 20
18626.27771880445
 30
0.0
 40
1.0
  1
1003-3944
210
0.0
220
1.0
230
0.0
100
AcDbAttribute
  2
VETA
 70
     1
  0
ATTRIB
  5
29A
330
298
100
AcDbEntity
  8
0
100
AcDbText
 10
9392.498513915027
 20
18626.27771880445
 30
0.0
 40
1.0
  1
1
210
0.0
220
1.0
230
0.0
100
AcDbAttribute
  2
POS
 70
     1
  0
ATTRIB
  5
29B
330
298
100
AcDbEntity
  8
0
100
AcDbText
 10
9392.498513915027
 20
18626.27771880445
 30
0.0
 40
1.0
  1
HIB/HIT 1000 NP
210
0.0
220
1.0
230
0.0
100
AcDbAttribute
  2
NAZEV
 70
     1
  0
ATTRIB
  5
29C
330
298
100
AcDbEntity
  8
0
100
AcDbText
 10
9392.498513915027
 20
18626.27771880445
 30
0.0
 40
1.0
  1

210
0.0
220
1.0
230
0.0
100
AcDbAttribute
  2
TYP
 70
     1
  0
ATTRIB
  5
29D
330
298
100
AcDbEntity
  8
0
100
AcDbText
 10
9392.498513915027
 20
18626.27771880445
 30
0.0
 40
1.0
  1

210
0.0
220
1.0
230
0.0
100
AcDbAttribute
  2
ZETA
 70
     1
  0
ATTRIB
  5
29E
330
298
100
AcDbEntity
  8
0
100
AcDbText
 10
9392.498513915027
 20
18626.27771880445
 30
0.0
 40
1.0
  1

210
0.0
220
1.0
230
0.0
100
AcDbAttribute
  2
DRUHTLUM
 70
     1
  0
ATTRIB
  5
29F
330
298
100
AcDbEntity
  8
0
100
AcDbText
 10
9392.498513915027
 20
18626.27771880445
 30
0.0
 40
1.0
  1

210
0.0
220
1.0
230
0.0
100
AcDbAttribute
  2
USEK
 70
     1
  0
ATTRIB
  5
2A0
330
298
100
AcDbEntity
  8
0
100
AcDbText
 10
9392.498513915027
 20
18626.27771880445
 30
0.0
 40
1.0
  1

210
0.0
220
1.0
230
0.0
100
AcDbAttribute
  2
PRUTOK
 70
     1
  0
SEQEND
  5
2A1
330
298
100
AcDbEntity
  8
0
  0
ENDSEC
  0
SECTION
  2
OBJECTS
  0
DICTIONARY
  5
C
330
0
100
AcDbDictionary
281
     1
  3
ACAD_GROUP
350
D
  3
ACAD_LAYOUT
350
1A
  3
ACAD_MLINESTYLE
350
17
  3
ACAD_PLOTSETTINGS
350
19
  3
ACAD_PLOTSTYLENAME
350
E
  3
AcDbVariableDictionary
350
5E
  0
DICTIONARY
  5
D
102
{ACAD_REACTORS
330
C
102
}
330
C
100
AcDbDictionary
281
     1
  0
DICTIONARY
  5
1A
102
{ACAD_REACTORS
330
C
102
}
330
C
100
AcDbDictionary
281
     1
  3
Model
350
22
  3
Rozvržení1
350
51
  3
Rozvržení2
350
56
  0
DICTIONARY
  5
17
102
{ACAD_REACTORS
330
C
102
}
330
C
100
AcDbDictionary
281
     1
  3
Standard
350
18
  0
DICTIONARY
  5
19
102
{ACAD_REACTORS
330
C
102
}
330
C
100
AcDbDictionary
281
     1
  0
ACDBDICTIONARYWDFLT
  5
E
102
{ACAD_REACTORS
330
C
102
}
330
C
100
AcDbDictionary
281
     1
  3
Normal
350
F
100
AcDbDictionaryWithDefault
340
F
  0
DICTIONARY
  5
5E
102
{ACAD_REACTORS
330
C
102
}
330
C
100
AcDbDictionary
281
     1
  3
DIMASSOC
350
5F
  3
HIDETEXT
350
63
  0
LAYOUT
  5
22
102
{ACAD_REACTORS
330
1A
102
}
330
1A
100
AcDbPlotSettings
  1

  2
none_device
  4
ANSI_A_(8.50_x_11.00_Inches)
  6

 40
6.349999904632568
 41
19.04999923706054
 42
6.350006103515625
 43
19.04998779296875
 44
215.8999938964843
 45
279.3999938964843
 46
0.0
 47
0.0
 48
0.0
 49
0.0
140
0.0
141
0.0
142
1.0
143
78.436453180766
 70
 11952
 72
     0
 73
     1
 74
     0
  7

 75
     0
147
0.0127491741332998
148
0.0
149
0.0
100
AcDbLayout
  1
Model
 70
     1
 71
     0
 10
0.0
 20
0.0
 11
12.0
 21
9.0
 12
0.0
 22
0.0
 32
0.0
 14
0.0
 24
0.0
 34
0.0
 15
0.0
 25
0.0
 35
0.0
146
0.0
 13
0.0
 23
0.0
 33
0.0
 16
1.0
 26
0.0
 36
0.0
 17
0.0
 27
1.0
 37
0.0
 76
     0
330
1F
  0
LAYOUT
  5
51
102
{ACAD_REACTORS
330
1A
102
}
330
1A
100
AcDbPlotSettings
  1

  2
None
  4

  6

 40
0.0
 41
0.0
 42
0.0
 43
0.0
 44
0.0
 45
0.0
 46
0.0
 47
0.0
 48
0.0
 49
0.0
140
0.0
141
0.0
142
1.0
143
1.0
 70
   688
 72
     0
 73
     0
 74
     5
  7

 75
    16
147
1.0
148
0.0
149
0.0
100
AcDbLayout
  1
Rozvržení1
 70
     1
 71
     1
 10
0.0
 20
0.0
 11
12.0
 21
9.0
 12
0.0
 22
0.0
 32
0.0
 14
0.0
 24
0.0
 34
0.0
 15
0.0
 25
0.0
 35
0.0
146
0.0
 13
0.0
 23
0.0
 33
0.0
 16
1.0
 26
0.0
 36
0.0
 17
0.0
 27
1.0
 37
0.0
 76
     0
330
50
  0
LAYOUT
  5
56
102
{ACAD_REACTORS
330
1A
102
}
330
1A
100
AcDbPlotSettings
  1

  2
None
  4

  6

 40
0.0
 41
0.0
 42
0.0
 43
0.0
 44
0.0
 45
0.0
 46
0.0
 47
0.0
 48
0.0
 49
0.0
140
0.0
141
0.0
142
1.0
143
1.0
 70
   688
 72
     0
 73
     0
 74
     5
  7

 75
    16
147
1.0
148
0.0
149
0.0
100
AcDbLayout
  1
Rozvržení2
 70
     1
 71
     2
 10
0.0
 20
0.0
 11
12.0
 21
9.0
 12
0.0
 22
0.0
 32
0.0
 14
0.0
 24
0.0
 34
0.0
 15
0.0
 25
0.0
 35
0.0
146
0.0
 13
0.0
 23
0.0
 33
0.0
 16
1.0
 26
0.0
 36
0.0
 17
0.0
 27
1.0
 37
0.0
 76
     0
330
55
  0
MLINESTYLE
  5
18
102
{ACAD_REACTORS
330
17
102
}
330
17
100
AcDbMlineStyle
  2
STANDARD
 70
     0
  3

 62
   256
 51
90.0
 52
90.0
 71
     2
 49
0.5
 62
   256
  6
BYLAYER
 49
-0.5
 62
   256
  6
BYLAYER
  0
ACDBPLACEHOLDER
  5
F
102
{ACAD_REACTORS
330
E
102
}
330
E
  0
DICTIONARYVAR
  5
5F
102
{ACAD_REACTORS
330
5E
102
}
330
5E
100
DictionaryVariables
280
     0
  1
2
  0
DICTIONARYVAR
  5
63
102
{ACAD_REACTORS
330
5E
102
}
330
5E
100
DictionaryVariables
280
     0
  1
1
  0
ENDSEC
  0
EOF
